INTRO:

E-----------------------------------------------------------------------
B----x-*--x----x----x----x-----x----x----x----x----x---x---x------------
G----x----x----x----x----x-----x----x----x----x----x---x---x------------
D----x----x----x----x----x-----x----x----x----x----x---x---x-----------
A----x----x----x----x----x-----x----x----x----x----x---x---x-----------
E-----------------------------------------------------------------------
*) create a soft sound by rubbing the side of the pick slide down
on the strings instead of plucking them. w/ pick

CHORUS I:

(Rhy.Fig.1) (end Rhy.Fig.1)
E---------------------------------------------------------------------|-
B---------------------------------------------------------------------|-
G---------------------------------------------------------------------|-
D---------------------------------------------------------------------|-
A--3h5-5-5---5-5-5--3h5-5-5---5-5-5--3h5-5-5---5-5-5--3h5-5-5---5-5-5-|-
E---------------------------------------------------------------------|-
dist. gtr.

repeat Rhy.Fig.1

CHORUS II:

(Rhy.Fig.2) (end Rhy.Fig.2)
E---------------------------------------------------------------------|-
B---5h6---------6----5h6--------6----5h6-------6----5h6------5h6---6--|-
G-------7-----7---7------7----7---7------7---7---7------7--------7----|-
D---------7----------------7---------------7--------------7-----------|-
A---------------------------------------------------------------------|-
E---------------------------------------------------------------------|-
dist. gtr. let ring

repeat Rhy.Fig.2

VERSE 1:

(keyboard & vox)

CHORUS I:

play Rhy.Fig.1 (2 times)

CHORUS II:
play Rhy.Fig.2 (2 times)

Beğeniler: 0
Favoriler: 0
İzlenmeler: 447
favori
like
share
Yabangülüm Tarih: 07.07.2008 07:54
rica ederim
COCO Tarih: 06.07.2008 23:48
Paylasima tesekkürler yaban gülüm.
samsunlu_55GS Tarih: 28.06.2008 13:42
MOONSPELL DINLEYEN VAR MI?
Yabangülüm Tarih: 07.06.2008 21:48
rica ederim
serseri_duman Tarih: 07.06.2008 17:38
tşkr ederim