Şarkıyı kendi tonunda çalmak için tellerinizi yarım
ton kalınlaştırınız.

eb-----------0-------0-------0-------0----------|
Bb---------6--6-----6-6-----0-0-----0-0---------|
Gb--------7----7---7---7---6---6---6---6--------| 6 kez
Db-------7------7-7-----7-7-----7-7-----7-------| 1.bölüm
Ab------0--------0-------0-------0-------0------|
Eb----------------------------------------------|


Son günlerde derken...

eb-------------------------0-------0------------|
Bb-------2-------2--------0-0-----0-0-----------|
Gb------2-2-----2-2------6---6---6---6----------|
Db-----4---4---4---4----7-----7-7-----7---------|
Ab----4-----4-4-----4--0-------0-------0--------|
Eb---2-------2----------------------------------|
2.bölüm
eb------------------------0---------------------|
Bb-------2-------2-------0-0--------0-----------|
Gb------2-2-----2-2-----6---6------1-1----------|
Db-----4---4---4---4---7-----7----2---2---------|
Ab----4-----4-4-----4-0-------0--2-----2--------|
Eb---2-------2-------2----------0-------0-------|

Ritim bölümü

eb---0---------0-------|
Bb---6---------0-------| Ritim kısmı kolay,siz 3.bölüm
Gb---7---------6-------| bulabilirsiniz.
Db---7---------7-------|
Ab---0---------0-------|
Eb---------------------|

Baştan tekrar...

İkinci ritim bölümünde

eb--0------0----- --0------------ --0-------|
Bb--6--------6--- --6------------ --0-------|
Gb--7----7------- --7------------ --6-------|
Db--7------------ --7------------ --7-------|
Ab--0------------ --0------------ --0-------|
Eb--------------- --------------- ----------|

"teşekkürler"derken "büyüyorum" "sizinle"

Ve son akorla bitiriyorsunuz

Beğeniler: 0
Favoriler: 0
İzlenmeler: 389
favori
like
share