INTRO:

|-------------------------------------------
|-------------------------------------------
|-------------------------------------------
|-------------------------------------5-----
|------5h7-------5h7-------5h7--0-5-7---7~--
|-0--0------0--0------0--0------------------

---------------------0----------------|
---------------------0--x-x-x-x-8--8\-|
---------------------0--x-x-x-x-7--7\-|
---------------------5--x-x-x-x-5--5\-|
------5h7-------5h7--7----------------|
-0--0------0--0-----------------------|


RIFF A:

|-------------------------------------------
|-------------------------------------------
|-------------------------------------------
|-------------------------------------5-----
|------5h7-------5h7-------5h7--0-5-7---7~--
|-0--0------0--0------0--0------------------

---------------------------------------
---------------------------------8--8\-
-------------------------------x-7--7\-
-------------------------------x-5--5\-
------5h7-------5h7-------5h7--x-------
-0--0------0--0------0--0--------------

---------------------------------------------
---------------------------------------------
---------------------------------------------
-------------------------------------5-------
------5h7-------5h7-------5h7--0-5-7---<7>~--
-0--0------0--0------0--0--------------------

---------------------0----------------|
---------------------0--x-x-x-x-8--8\-|
---------------------0--x-x-x-x-7--7\-|
---------------------5--x-x-x-x-5--5\-|
------5h7-------5h7--7----------------|
-0--0------0--0-----------------------|


VERSE:

|----------------------------------------------
|----------------------------------------8-----
|------------------------------------7-9---9~--
|----------------------------------7-----------
|----------------------------------------------
|-0--0-0-0-0-0--0-0-0-0-0--0-0-0-0-------------
________________________________

------------------------------------------|
------------------------------------8--8\-|
----------------------------------x-7--7\-|
----------------------------------x-5--5\-|
----------------------------------x-------|
-0--0-0-0-0-0--0-0-0-0-0--0-0-0-0---------| 2x
________________________________


RIFF B:

|---------------------------------------------
|---------------------------------------------
|---------------------------------------------
|-------------------------------------5-------
|------5h7-------5h7-------5h7--0-5-7---<7>~--
|-0--0------0--0------0--0--------------------

---------------------------------------
---------------------------------8--8\-
-------------------------------x-7--7\-
-------------------------------x-5--5\-
------5h7-------5h7-------5h7--x-------
-0--0------0--0------0--0--------------

-------------------------------------------
-------------------------------------------
-------------------------------------------
-------------------------------------5-----
------5h7-------5h7-------5h7--0-5-7---7~--
-0--0------0--0------0--0------------------

----------------------------------------------------------|
---------------------------------8--8\--------------------|
-------------------------------x-7--7\--------------------|
-------------------------------x-5--5\--------------------|
------5h7-------5h7-------5h7--x-------/5~----------------|
-0--0------0--0------0--0---------------------------------|


INTERLUDE: (clean guitar using wah and some effects)

|-----10----------------------8----------------7----------------8------------
|--12-------------------------6----------------5----------------6------------
|-----------------------------5----------------4----------------5------------
|-----------------------------0----------------0----------------0------------
|----------------------------------------------------------------------------
|----------------------------------------------------------------------------

----7----------------8----8p5---6h8-5--7----7p4---7p4-4--8----8p5---8p5-5--
----5----------------6--------6--------5--------5--------6--------6--------
----4----------------5-----------------4-----------------5-----------------
----0----------------0-----------------0-----------------0-----------------
---------------------------------------------------------------------------
---------------------------------------------------------------------------

-7---------------|
-5---------------|
-4---------------|
-0--------x\\----|
-----------------|
-----------------|


RIFF C:

|---------------------------------------------
|---------------------------------------------
|---------------------------------------------
|-7----------7----------7----------7----------
|-7--7-7-7-7-7--7-7-7-7-7--7-7-7-7-7--7-7-7-7-
|-5--5-5-5-5-5--5-5-5-5-5--5-5-5-5-5--5-5-5-5-
_______ _______ _______ _______

---------------------------------------------
---------------------------------------------
---------------------------------------------
-8----------8----------8----------8----------
-6--6-6-6-6-6--6-6-6-6-6--6-6-6-6-6--6-6-6-6-
-6--6-6-6-6-6--6-6-6-6-6--6-6-6-6-6--6-6-6-6-
_______ _______ _______ _______

---------------------------------------------
---------------------------------------------
---------------------------------------------
-7----------7----------7----------7----------
-7--7-7-7-7-7--7-7-7-7-7--7-7-7-7-7--7-7-7-7-
-5--5-5-5-5-5--5-5-5-5-5--5-5-5-5-5--5-5-5-5-
_______ _______ _______ _______

-------------------------------------------|
-------------------------------------------|
-------------------------------------------|
-8----------8----------8----------8--8--8--|
-6--6-6-6-6-6--6-6-6-6-6--6-6-6-6-6--6--6--|
-6--6-6-6-6-6--6-6-6-6-6--6-6-6-6-6--6--6--| 2x
_______ _______ _______

|-------------------------------------------
|-------------------------------------------
|-------------------------------------------
|-7----------7----------7----------7--7--7--
|-7--7-7-7-7-7--7-7-7-7-7--7-7-7-7-7--7--7--
|-5--5-5-5-5-5--5-5-5-5-5--5-5-5-5-5--5--5--
_______ _______ _______

-------------------------------------------
-------------------------------------------
-------------------------------------------
-8----------8----------8----------8--8--8--
-6--6-6-6-6-6--6-6-6-6-6--6-6-6-6-6--6--6--
-6--6-6-6-6-6--6-6-6-6-6--6-6-6-6-6--6--6--
_______ _______ _______

-------------------------------------------------
-------------------------------------------------
-7-----7-----7-----7-----7-----7-----7-----7-----
-7--7--7--7--7--7--7--7--7--7--7--7--7--7--7--7--
-5--5--5--5--5--5--5--5--5--5--5--5--5--5--5--5--
-------------------------------------------------
_ _ _ _ _ _ _ _

-------------------------------------------------|
-------------------------------------------------|
-------------------------------------------------|
-8-----8-----8-----8-----8-----8-----8-----8-----|
-6--6--6--6--6--6--6--6--6--6--6--6--6--6--6--6--|
-6--6--6--6--6--6--6--6--6--6--6--6--6--6--6--6--|
_ _ _ _ _ _ _ _


RIFF D:

|-----------------------------------------------
|-------------10--10-----------------10--10-----
|-------------12b-12b-r--------------12b-12b-r--
|-----------------------------------------------
|-0-0-0-0-0-0------------0-0-0-0-0-0------------
|-----------------------------------------------
___________ ___________

---------------------------------------------
---------------------------------------------
---------------------------------------------
-8----------8----------8----------8----------
-6--6-6-6-6-6--6-6-6-6-6--6-6-6-6-6--6-6-6-6-
-6--6-6-6-6-6--6-6-6-6-6--6-6-6-6-6--6-6-6-6-
_______ _______ _______ _______

-----------------------------------------------
-------------10--10-----------------10--10-----
-------------12b-12b-r--------------12b-12b-r--
-----------------------------------------------
-0-0-0-0-0-0------------0-0-0-0-0-0------------
-----------------------------------------------
___________ ___________

---------------------------------------------|
---------------------------------------------|
---------------------------------------------|
-8----------8----------8---------------------|
-6--6-6-6-6-6--6-6-6-6-6--6-6-6-6-6-6-6------|
-6--6-6-6-6-6--6-6-6-6-6--6-6-6-6-6-6-6-15\--|
_______ _______ _____________


RIFF A


VERSE - 2x


OUTRO:

|-------------------------------------------
|-------------------------------------------
|-------------------------------------------
|-------------------------------------5-----
|------5h7-------5h7-------5h7--0-5-7---7~--
|-0--0------0--0------0--0------------------

---------------------------------------
---------------------------------8--8\-
-------------------------------x-7--7\-
-------------------------------x-5--5\-
------5h7-------5h7-------5h7--x-------
-0--0------0--0------0--0--------------

-------------------------------------------
-------------------------------------------
-------------------------------------------
-------------------------------------5-----
------5h7-------5h7-------5h7--0-5-7---7~--
-0--0------0--0------0--0------------------

------------------------------------------------------------|
---------------------------------8--8\----8--8\----8--8\----|
-------------------------------x-7--7\--x-7--7\--x-7--7\----|
-------------------------------x-5--5\--x-5--5\--x-5--5\----|
------5h7-------5h7-------5h7--x--------x--------x--------2-|
-0--0------0--0------0--0---------------------------------0-|

Beğeniler: 0
Favoriler: 0
İzlenmeler: 387
favori
like
share