Şarkıcı: Cahit Berkay
Şarkı: AL YAZMALIM


Am
E||---------3--2--3--||---0------0-----0---|
B||------------------||-------------1----3-|
G||--2---------------||*-------------------|
D||------------------||*-------------------|
A||------------------||--------------------|
E||------------------||--------------------|


Dm
------------------|---------------------|
--3------3--3--0--|--1-----0--1-3-0-----|
------------------|-----2------------2--|
------------------|---------------------|
------------------|---------------------|
------------------|---------------------|


Am Am
Dolap...............
---------3--2--3---||---------------0--------|
-------------------||---0--1-3--3-1---3-3----|
--2---------------*||*-----------------------|
------------------*||*-----------------------|
-------------------||------------------------|
-------------------||------------------------|


C
---------------------|-----------------------|
--1--1---0-1-3-0-----|----1-1---0-1-3-0--0---|
------------------2--|--0------------------2-|
---------------------|-----------------------|
---------------------|-----------------------|
---------------------|-----------------------|


Am
Dolap................
-----------0---------||---------------|
-------------1-3-----||---------------|
--2---2-2-----------*||--2------------|
--------------------*||---------------|
---------------------||---------------|
---------------------||---------------|


G D
|---2--3--3-2-5-3-3--3-2-|--2--2--2-0-3-2-2--2-0-|
|------------------------|-----------------------|
|*-----------------------|-----------------------|
|*-----------------------|-----------------------|
|------------------------|-----------------------|
|------------------------|-----------------------|

Dm Am
--2--3-0--0---1-0-0--0---|--0-----------0---------||
------------3----------3-|-----3-3--3-1---3-3-----||
-------------------------|-----------------------*||
-------------------------|-----------------------*||
-------------------------|------------------------||
-------------------------|------------------------||




aLıntıdır...

Beğeniler: 0
Favoriler: 0
İzlenmeler: 11350
favori
like
share
cagatay1998 Tarih: 27.02.2011 20:13
tab notası
sengo98 Tarih: 14.11.2010 19:22
bune abicim yaw ? :@