Akor

Em Am G F Em
Duyudum ki unutmuşsun gözlerimin rengini
Em G F Em
Duyudum ki unutmuşsun gözlerimin rengini
Em Am C G
Yazık olmuş o gözlerden sana akan yaşlara
F7 Em Am G F Em
Yazık olmuş o gözlerden sana akan yaşlara

C Em
Bir zamanlar sevginle
Am G
Ateşlenen başımı
F Am C
Dizlerinin yerine
G F Em
Dayasaydım taşlara


Em Am G F Em
Hani bendim yedi renk hani tende can idim
Em G F Em
Hani bendim yedi renk hani tende can idim
Em Am C G
Hani gündüz hayâlin geceler rüyan idim
F7 Em Am G F Em
Hani gündüz hayâlin geceler rüyan idim

C Em
Demek ki senin için
Am G
Aşk değil yalan imiş
F Am C
Acırım heder olan
G F Em
O en güzel yıllara




Tab

e|----------------|------------------|
B|----------------|------------------|
G|--3-4-3-1-------|------------------|
D|---------4-3-1--|---3-4-3-1--------|
A|----------------|-----------4-2-1--|
E|----------------|------------------|


e|-----------------|-----------------|
B|------------4-2--|-----2-----------|
G|--3-4-1-3-4------|--3-4---4-3-1-3--|
D|-----------------|-----------------|
A|-----------------|-----------------|
E|-----------------|-----------------|


e|---------------------|-------------|
B|---------------------|-------------|
G|-3-4-3-1-------------|-------------|
D|---------4-3-1-1-1/4-|---3-4-3-1---|
A|---------------------|-------------|
E|---------------------|-------------|


e|-------------------|---------------|
B|-------------------|---------------|
G|-------------------|---------------|
D|-1-2-1---------1/4-|-3-1-----------|
A|-------4-2-4-1-----|-----4-2-1-2-1-|
E|-------------------|---------------|


e|-------------------|---------------------|
B|-------------------|---------------------|
G|-------------------|---------------------|
D|-3-3/4-4-4-4-3-4-3-|-------3-4-3-1---1---|
A|-------------------|-4-2-1---------4---4-|
E|-------------------|---------------------|


e|---------------------|---------------|
B|---------------------|---------------|
G|---------------------|---------------|
D|-------------1-1-1/4-|-3-1-4---------|
A|-2-2-2-2-1-----------|-------2-1-2-1-|
E|-----------4---------|---------

Beğeniler: 0
Favoriler: 0
İzlenmeler: 2827
favori
like
share