BASS GİRİŞ

E:-------------------------------------------------|
B:-------------------------------------------------|
G:-------------------------------------------------|
D:-------------------------------------------------|
A:------------------3-2----0-----------------------|
E:--0---0-1---1-3--------3-------------------------|


BASS ARA

E:-------------------------------------------------|
B:-------------------------------------------------|
G:-------------------------------------------------|
D:--2-2---2-2-----0-------3-3---3-3-----0----------|
A:--------------3---------------------3------------|
E:-------------------------------------------------|


SOLO

E:--------------------0----------------------------|
B:-0--0---0---1---1-3---0--------------------------|
G:------2-------------------2-0-2---0-2------------|
D:-------------------------------------------------|
A:-------------------------------------------------|
E:-------------------------------------------------|


E:--------------------0----------------------------|
B:-0--0---0---1---1-3---0--------------------------|
G:------2-------------------2-0-2---0--------------|
D:------------------------------------3-2----------|
A:-------------------------------------------------|
E:-------------------------------------------------|

Beğeniler: 2
Favoriler: 0
İzlenmeler: 2431
favori
like
share