Sanatçı: MFÖ
Şarkı: Sarı Laleler


intro
C
E||--------------------------|-----------------0-----|
G||--------------------------|-----------------0-----|
D||---------00-22-44-5-------|-55-44-22-0h2p0--2-----|
A||--22-33-------------------|-----------------1-----|
E||--------------------------|-----------------0-----|
Em
E||--------------------------|-----------------0-----|
G||--------------------------|-----------------2-----|
D||---------00-22-44---------|-0-2-0-----------2-----|
A||-00-22-33-----------------|--------3-2--3-2-0-----|
E||--------------------------|-----------------0-----|


Em C
Uykulu gözlerle döndüm rüyamdan
D C Em
Sana sarı laleler aldım çiçek pazarından
C
Sen olmasan buralara gelemezdim ben
D C Em
Sevemezdim bu şehri anlamazdım dilinden


intro tekrar



C B7
Nasıl bir sevdaysa bu karşı koyamam
C B7
Dayanırım kıskanırım seni paylaşamam
Am
Satırlar uçar gider aklımdan
C Am Em
Sana sarı laleler aldım çiçek pazarından



Em C
Uykulu gözlerle döndüm rüyamdan
D C Em
Sana sarı laleler aldım çiçek pazarından
C
Sen olmasan buralara gelemezdim ben
D C Em
Sevemezdim bu şehri anlamazdım dilinden



C B7
Yeniden başlasam bu sefer korkmadan
C B7
Koklayıp birbirimizi çöpe atmadan
Am
Satırlar uçar gider aklımdan
C Am Em
Sana sarı laleler aldım çiçek pazarından


Em C
Uykulu gözlerle döndüm rüyamdan
D C Em
Sana sarı laleler aldım çiçek pazarından
C
Sen olmasan buralara gelemezdim ben
D C Em
Sevemezdim bu şehri anlamazdım dilinden



MFÖ - Sarı Laleler KULLANILAN AKORLAR (Beta)

C > 0 3 2 0 1 0 > 0 3 5 5 5 3 > 3 3 2 0 1 0
Em > 0 2 2 0 0 0 > 3 x 2 0 0 0 > x 2 5 x x 0
D > x 5 4 2 3 2 > x 9 7 7 x 2 > 2 0 0 2 3 2
B7 > 2 x 1 2 0 2 > x 0 1 2 0 2 > x 2 1 2 0 2
Am > x 0 2 2 1 0 > x 0 7 5 5 5 > x 3 2 2 1 0

Beğeniler: 0
Favoriler: 0
İzlenmeler: 2069
favori
like
share
saonny Tarih: 22.03.2010 20:29
abimi çok mutlu ettin..