Akor

Em-F(2 kez) Am Em G Am F Dm F Dm Em


Am Em G
Seviyorum seni ekmeği tuza banıp,banıp yer gibi
Am F
Geceleyin ateşler içinde uyanarak
Dm G F Dm Em
Ağzımı dayayıp musluğa su içer gibi


Am Em
Ne zaman seni düşünsem bir ceylan su içmeye iner
G Am F
Çayırları büyürken,büyürken gördüğüm gülüm her sabah
G
Her akşam seninle yeşil bir zeytin tanesi
F Dm Em
Bir parça mavi deniz alır beni


Am Em
Seni düşündükçe gül dikiyorum ellerimin değdiği yere
G Am F
Atlara su veriyorum daha bir seviyorum dağları gülüm
G
Her akşam seninle yeşil bir zeytin tanesi
F Dm Em
Bir parça mavi deniz alır beni



Tab

e[--------------------------------7--------------------
B[--8-8-8-10-8-7-8---8-8-8-7-8-10---10-8-7--7-8-7-5-7--
G[-----------------------------------------------------
D[-----------------------------------------------------
A[-----------------------------------------------------
E[-----------------------------------------------------

e[----------------------------------5------------------
B[--7-7-7--7-8-7-5-7---7-7-7--5-7-8---8-7-5-7-5---5----
G[----------------------------------------------7------
D[-----------------------------------------------------
A[-----------------------------------------------------
E[-----------------------------------------------------

e[-----------------------------------------------------
B[--5-5-5-7-5---5---5-5-5---5-7-------------5-7-5------
G[------------7-----------7-----7-7--5-5--7-------7-5-4-
D[-----------------------------------------------------
A[-----------------------------------------------------
E[-----------------------------------------------------

e[-----------------------------------------------------
B[-------------5-5------7-7-5---7-5---------5----------
G[--4-7-7-5--5-----7--7-------------7--5--7---7-5-4----
D[-----------------------------------------------------
A[-----------------------------------------------------
E[-----------------------------------------------------

Beğeniler: 0
Favoriler: 0
İzlenmeler: 3616
favori
like
share