Yılan Hikayesi Flüt Notası - Yılan Hikayesi Gitar Notası - Yılan Hikayesi Notaları


Yılan Hikayesi Flüt Notası

Re-mi-fa-sol-la
La-sol-sol-fa-sol-fa-sol-la-sol
Sol-fa-fa-mi-fa-mi-fa-sol-fa
Fa-mi-mi-re-mi-re-mi
Fa-mi-mi-re-re-do-re-do-re-mi




Yılan Hikayesi Gitar Akor

Am Dm
Gün o gün gittiğinde düşün
F E
Aldattın kalbimi belki ağlarsın
Am Dm
Gün o gün aşkımı düşün
F E
Ağlattın ruhumu belki anlarsın

Am Dm
Aşkın bedeli,sanki korkudan bağlı dili
F
Sevda yanar uçar külleri
G
Ya bu nefrete ne demeli
Em Am
Yılanın hayat hikayesi

Am Dm
Gün o gün gelmesen de düşün
F E
Kararan aşkımı belki ağlarsın
Am Dm
Gün o gün döndüğünde bana
F E
Sadece sarılır ya da ağlarsan
Am
Ben ağlarım

Am Dm
Aşkın bedeli,sanki korkudan bağlı dili
F
Sevda yanar uçar külleri
G
Ya bu nefrete ne demeli
Em Am
Yılanın hayat hikayesi




Yılan Hikayesi - TAB

Şarkının Nakarat Kısmı...

E------------|-------------------|-------------------|-------------------|-------------------
B------------|-------------------|-------------------|-------------------|-------------------
G------------|-------------------|-------------------|-------------------|-------------------
D--0-2-3-5-7-|-7-5-5-3-5-3-5-7-5-|-5-3-3-2-3-2-3-5-3-|-3-2-2-0-2-0-2-3-2-|-2-0-0---0---0-2-0-
A------------|-------------------|-------------------|-------------------|-------3---3-------
E------------|-------------------|-------------------|-------------------|-------------------

VEYA

E------------|-------------------|-------------------|-------------------|-------------------
B------------|-------------------|-------------------|-------------------|-------------------
G--------0-2-|-2-0-0---0---0-2-0-|-0-------------0---|-------------------|-------------------
D--0-2-3-----|-------3---3-------|---3-3-2-3-2-3---3-|-3-2-2-0-2-0-2-3-2-|-2-0-0---0---0-2-0-
A------------|-------------------|-------------------|-------------------|-------3---3-------
E------------|-------------------|-------------------|-------------------|-------------------

Beğeniler: 0
Favoriler: 0
İzlenmeler: 71490
favori
like
share
MAIN-BOARD Tarih: 24.07.2016 15:06
Tebrikler!
Paylaşımınız haftanın en popüler içerikleri arasında.
Ödüllü Paylaşımlar
bhjk Tarih: 19.12.2010 15:53
emeğe saygı thnx
kopuks Tarih: 17.12.2010 20:22
tşkler 97 aldım
nofear58010 Tarih: 23.10.2010 14:29
sal kardes100 aldım
3p3tuk4 Tarih: 18.01.2010 15:25
saol gzl paylaşım
müzik prensesi Tarih: 10.01.2010 11:18
çok saol yha ne zamandan beri ariodum