Elveda Rumeli - İsyankar Yürek Tab - Elveda Rumeli Notası - İsyankar Yürek Notası


|-------------------------------------------------------|
|----0-1--11-0--------0--00-----------------------------|
|--2----------2--0-2--------2-0---0-2--22--0------------|
|-------------------------------3------------3-2---33-2-|

|------0--11------------00------------------------------|
|--1-3-------3-1--0-1-3----1-0----0-1-11--0-------------|
|-------------------------------2-----------2-0---22-0--|
|-------------------------------------------------------|

|-------------------------------------------------------|
|----0-1--11-0--------0--00-----------------------------|
|--2----------2--0-2--------2-0---0-2--22--0------------|
|-------------------------------3------------3-2---33-2-|

|-------------------------------------------------------|
|-------------------------------------------------------|
|--------------------------------0----------------------|
|--2-0-2--2-3-0--2-0-2--3-2-3--0---3-2-2----------------|

|-------------------------------------------------------|
|-----------0-1-----------------------------------------|
|--2-0-2--2-----2-0-0-----------0-2---------------------|
|----------------------3-2-3--3-----3-2-2---------------|

|-------------------------------------------------------|
|----0-1--11-0--------0--00-----------------------------|
|--2----------2--0-2--------2-0---0-2--22--0------------|
|-------------------------------3------------3-2---33-2-|

|------0--11------------00------------------------------|
|--1-3-------3-1--0-1-3----1-0----0-1-11--0-------------|
|-------------------------------2-----------2-0---22-0--|
|-------------------------------------------------------|

|-------------------------------------------------------|
|----0-1--11-0--------0--00-----------------------------|
|--2----------2--0-2--------2-0---0-2--22--0------------|
|-------------------------------3------------3-2---33-2-|

Beğeniler: 0
Favoriler: 0
İzlenmeler: 792
favori
like
share