Beyaz Giyme - Akor - Tab - Beyaz Giyme Akor - Beyaz Giyme Tab


Tab

Cm Fm
E||4--6-6-4-4-3-3--4-3-----|--4-3---------4-3---4|
B||--------------------6-4-|6-----6-4---------6--|
G||------------------------|----------6-5--------|
D||------------------------|---------------------|
A||------------------------|---------------------|
E||------------------------|---------------------|


Cm Cm
--3--3--3--3-||---4-6-6-4-4-3-3----4--3-----|
-------------||------------------------6-4--|
-------------||*----------------------------|
-------------||*----------------------------|
-------------||-----------------------------|
-------------||-----------------------------|


Fm Db Cm
--4-3--------4-3----|-3-------------------------|
6----6-4---------6-4|--6-6-4-4-------------4-6-4|
---------6-5--------|----------6-6-5-5-5-6------|
--------------------|---------------------------|
--------------------|---------------------------|
--------------------|---------------------------|

-----6-6-4-4---------------------||
--------------6-6-5-5----L------*||
--------------------------------*||
---------------------------------||
---------------------------------||




Akor

Am Am Bb Dm
Beyaz giyme toz olur
Dm Am
Siyah giyme söz olur
Am Am/bb Dm
Gel beraber gezelim
Dm Am
Muradımız tez olur

Dm Bb Am
Salına da salına da gel, hadi yarim
Dm Bb Am
Dön dolaş yine bana gel

Am Am Bb Dm
Alçak ceviz dalları
Dm Am
Sıva beyaz kolları

Am Am Bb Dm
Kız nereden geleyim
Dm Am
Hep tutmuşlar yolları

Dm Bb Am
Salına da salına da gel, hadi yarim
Dm Bb Am
Dön dolaş yine bana gel

Beğeniler: 0
Favoriler: 0
İzlenmeler: 6973
favori
like
share