Kıraç - Beyaz Gelincik - Tab Notası

Gelincik çılgın... Yanardağım.. Gelincik
Dm Cm D# Dm Gitar1

-10-11-10--10-11-13-10----------11-10------13--11-11-10-------------------
-----------------------------13------13-----------------------------------
-------------------------------------------------------------------------- Gitar2
--------------------------------------------------------------------------
--------------------------------------------------------------------------
--------------------------------------------------------------------------



Cm Gm F D# Dm
----10-11------------10---------------------------------------------------
-13------13-----11-13--11---10-11-13---10---------13-11-10-10-------------
-----------------------------------------12-10----------------------------
--------------------------------------------------------------------------
--------------------------------------------------------------------------
--------------------------------------------------------------------------




Dm Gm F D# Cm
--------------------------------------------------------------------------
10-11-13-10-------10-11-----------10--------------------------------------
----------------12-----12----10-12---10--------10-------------------------
----------------------------------------13-12----13-12-13-----------------
--------------------------------------------------------------------------
--------------------------------------------------------------------------





Dm Gm F D# Dm
--------------------------------------------------------------------------
10-11-13-10-------10-11-----------10--------------------------------------
----------------12-----12----10-12--10------10----------------------------
---------------------------------------13-12---13-12-12-------------------
--------------------------------------------------------------------------
--------------------------------------------------------------------------


Dm
Gelincik çılgın aşkım
Cm D#-Dm
Yanardağım gelincik

Beğeniler: 0
Favoriler: 0
İzlenmeler: 1862
favori
like
share