Divane Aşık Gibi Nota - Divane Aşık Gibi Gitar Notaları - Gitar Notası
E F E

Divane aşuk gibi da yar dolaşırım yollarda

E F E

Divane aşuk gibi da dolaşırım yollarda

Am E F Am E F

Kız senun sebebune Kız senun sebebune

E F E

Kaldım istanbullarda kaldım istanbularda

Am E F Am E F

Kız senun sebebune Kız senun sebebune

E F E

Kaldım istanbullarda kaldım istanbularda



E F E

Sar belune belune da karadeniz kuşağı

E F E

Sar belune belune da karadeniz kuşağu

Am E F Am E F

E kız sende delisun E kız acep delisun

E F E

Alsam hapu uşağu Alsam hapu u

Am E F Am E F

E kız sende delisun E kız acep delisun

E F E

Alsam hapu uşağu Alsam hapu u



E F E

Yüksek dağun kuşiyum da selviye konacağum

E F E

Yüksek dağun kuşiyum da selviye konacağum

Am E F Am E F

İste beni babamdan iste beni anamdan

E F E

Vermezse kaçacağım Vermezse kaçacağum

Am E F Am E F

İste beni babamdan iste beni anamdan

E F E

Vermezse kaçacağım Vermezse kaçacağum



E F E

Al şalum yeşil şalum da dağlaru dolaşalum

E F E

Al şalum yeşil şalum da dağlaru dolaşalum

Am E F Am E F

sen yağmur ol ben bulut sen yağmur ol ben bulut

E F E

Maçkada buluşalum Maçkada buluşalum

E F E

Maçkada buluşalum Maçkada buluşalum





E-----------------|-----------------|

B----------1------|-----------------|

G-1-2--4-4---4-2-2|--2-2-2-2-1------|

D-----------------|------------3-2--|

A-----------------|-----------------|

E-----------------|-----------------|



E-----------------|-----------------|

B---------1-------|-----------------|

G-1-2-4-4---4-2-2-|--2-2-2-2-1------|

D-----------------|------------3-2--|

A-----------------|-----------------|

E-----------------|-----------------|



E-----------------|-----------------|

B-----------------|-----------------|

G-2-2-2-2-1-------|-2-2-2-2-1-------|

D-----------3-2---|------------3-2--|

A-----------------|-----------------|

E-----------------|-----------------|




E-----------------|-----------------|

B-----------------|-----------------|

G--------1--------|-----------------|

D--2-2-2-2---3-3-2|--2-2-2-2---2-2--|

A-----------------|-----------------|

E-----------------|-----------------|

Beğeniler: 0
Favoriler: 0
İzlenmeler: 3642
favori
like
share
ilaytu Tarih: 26.12.2009 23:10
sarı gelin notaları varsa gönderir misiniz lütfen yılbaşında çalıcam

:19:
mavis_mervenur Tarih: 18.12.2009 18:48
hmm çok teşekkür ederim