Bana Bir Masal Anlat Nota - Nota - Yeni Türkü
|:Em D Bm Am7 C Bm Em
E|0---3---2-32----|--222-2-3-53-320|--000-0-2-32-03-|7-------5320--02-|
B|-----------------|----------------3|1----------------|8------------4---4|
G|-----------------|-----------------|-----------------|-------------------|
D|-----------------|-----------------|-----------------|-------------------|

|:Em D Bm Am7 C Bm Em
E|0---3---2-32----|--222-2-3-53-320|--000-0-2-32----|7----------------|
B|-----------------|----------------3|1--------------4-|5----------------|
G|-----------------|-----------------|-----------------|-----------------|
D|-----------------|-----------------|-----------------|0----------------|

Em C
Bana bir masal anlat baba,
Am C
İçinde tüm oyunlarım,
Am B Em
Kurtla kuzu olsun şekerle bal.
(son tekrarda bitiş’e git)
Em C
Baba bir masal anlat bana,
Am C
İçinde denizle balıklar,
Am B Em D Bm Am C D G
Yağmurla kar olsun güneşle ay.


Em D Bm Am C D G
E|0---3---2-32----|--222-2-3-53----|--333-3-2-35--8-|7---------------|
B|-----------------|-----------------|-----------------|----------------|
G|-----------------|-----------------|-----------------|----------------|
D|-----------------|-----------------|-----------------|----------------|
(neşle ay.) (Anlatırken . . .)

G D
| Anlatırken tut elimi
|Am C
2 > | Uykuya dalıp gitsem bile
|G Bm C D
| Bırakıp gitme sakın beni

Em C
Bana bir masal anlat baba
Am C
İçinde tüm sevdiklerim
Am B Em
İçinde İstanbul olsun

(başa dön)
(bitiş]
Em D Bm Am7 C Bm Em
E|0---3---2-32----|--222-2-3-53-320|--000-0-2-32----|7---------------|
B|-----------------|----------------3|1--------------4-|5---------------|
G|-----------------|-----------------|-----------------|----------------|
D|-----------------|-----------------|-----------------|0---------------|

Beğeniler: 0
Favoriler: 0
İzlenmeler: 3531
favori
like
share
_AyLiN Tarih: 29.01.2011 16:40
Gitar notaları yok mu ?? ((Akor Değil))
mustafa rock Tarih: 14.05.2010 23:30
ya nolur haca istio ya
skullemir07 Tarih: 13.05.2010 19:46
güzel olmuş paylaşım için saol
serkutalp Tarih: 13.05.2010 17:41
ritmini nedir bu şarkının?
Betübüşko Tarih: 12.03.2010 13:59
bunlar akor tab fln başlıga akor yazın bari ffff notadiyye giriom bi bakıyom pğfff
isomaill87 Tarih: 09.03.2010 20:05
kardes bi melodika notalrını versen